Put ka sreći akordi – Goran Bare & Plaćenici

Put ka sreći akordi. Pjesma “Put ka sreći” objavljena je 20.veljače.2001. godine na albumu “Izgubljen i nađen” grupe Goran Bare & Plaćenici. Izdavač Croatia Records.

Album je pokupio odlične kritike glazbenih kritičara. Također bitno je napomenuti da album bio u kategoriji nominacija za “Porin za album godine” i “Porin za najbolju izvedbu grupe s vokalom”. Album je osvojio “Porin za najbolji album rock glazbe”.

Akorde koje ćemo koristiti su : G, C, A, D.
Pjesma ima prepoznatljivi uvod koji ćete vjerujem jednostavno savladati. Ovo je odlična pjesma za vježbati ritam gitaru s osnovnim akordima. Svakako preporučam da je naučite. U nastatavku Put ka sreći akordi. Uživajte !

Put ka sreći tablatura uvoda :

                               G
E||----7--7--7--7--5--3-----|--3----------------|----7--7--7--7--5--3-----|
B||----------------------5--|-------------------|----------------------5--|
G||-------------------------|-------------------|-------------------------|
D||-------------------------|-------------------|-------------------------|
A||-------------------------|-------------------|-------------------------|
E||-------------------------|-------------------|-------------------------|
  C                                              A               D 
--5--------3--------|----7--7--7--7--5--3-----|--5----5----5--2-----------|
--------------------|----------------------5--|------------------5-----3--|
--------------------|-------------------------|---------------------------|
--------------------|-------------------------|---------------------------|
--------------------|-------------------------|---------------------------|
--------------------|-------------------------|---------------------------|
                            G       C       G
-----7--7--7--7--5--3-----|--3---3-----5----3---|   *Objašnjenje tablatura možete 
-----------------------5--|---------------------|    pronaći ovdje.
--------------------------|---------------------|
--------------------------|---------------------|
--------------------------|---------------------|
--------------------------|---------------------|

Put ka sreći akordi :

put ka sreći akordi, put ka sreći akordi za gitaru, put ka sreći tablatura

Uvod : G – C – A – D – G – C – G  (preko ovih akorda druga gitara svira gornji uvodni)

Pjevanje :

                      G
gdje je nestao čovjek
                     C
gdje se skriva on
              G
iz vagona godina
                      C
na tračnice ispao

                    G
gleda gdje su znakovi
                   C
kojim putem krenuti
                G
moze li tko reći
                    C
gdje je put ka sreći

 

Refren :

        A
samo živi samo budi
    C 
svi odgovori doći ce sami
       A
samo stoj na svjetlu
C               D
i doći ce kraj tami


Prijelaz : G – C – A – D – G – C – G  
(preko ovih akorda druga gitara svira gornji uvodni)

                G
kakva je to istina
                              C
kad s druge strane je laž
            G
izvrnute vrijednosti
                 C
strah samo strah

                 G
neostvarivi snovi
                   C
radiš ono sto ne voliš
               G
ali mogu ti reći
                    C
gdje je put ka sreći


Refren :

        A
samo živi samo budi
    C 
svi odgovori doći ce sami
       A
samo stoj na svjetlu
C               D
i doći ce kraj tami


SOLO x 2 : G – C – A – D – G – C – G
  (preko ovih akorda druga gitara svira gornji uvodni dio, a drugi krug isti taj uvod samo na višim tonovima)

				   G	
----19--19--19--19--17--15------|--15----------------|
----------------------------17--|--------------------|
--------------------------------|--------------------|
--------------------------------|--------------------|
--------------------------------|--------------------|
--------------------------------|--------------------|
C
----19--19--19--19--17--15------|--17--------15--------|
----------------------------17--|----------------------|
--------------------------------|----------------------|
--------------------------------|----------------------|
--------------------------------|----------------------|
--------------------------------|----------------------|

A	               D
----19--19--19--19--17--15------|--17----17----17--14--------|
----------------------------17--|----------------------17----|
--------------------------------|----------------------------|
--------------------------------|----------------------------|
--------------------------------|----------------------------|
--------------------------------|----------------------------|
 G	      C      G
------19--19--19--19--17--15------|--15--------17----15----|
--15--------------------------17--|------------------------|
----------------------------------|------------------------|
----------------------------------|------------------------|
----------------------------------|------------------------|
----------------------------------|------------------------|

                     G
Kako dugo će postojati
                    C
kako dugo će nestajati
                      G
želje, potrebe, osjećaji
                 C
ko ih koče i pokreću
                  G
tebe, mene, svo to vrijeme
                   C
srca tvrda ko kamenje
                G
da mogu ti reći
                      C
pokazat put ka sreći


Refren :

        A
samo živi samo budi
    C 
svi odgovori doći ce sami
       A
samo stoj na svjetlu
C               D
i doći ce kraj tami

Kraj x 2  : G – C – A – D – G – C – G  (preko ovih akorda druga gitara svira gornji uvodni) solo)

Put ka sreći akordi – Goran Bare & Plaćenici
5 (100%) 2 votes

Mala Škola Gitare - komentari