Pretty Woman Akordi – Roy Orbison

Pretty Woman Akordi. Originalnog naslova “Oh, Preety Woman” još je jedna u nizu klasika iz 1964. Godine. Originalnu i najpoznatiju verziju pjesme je snimio legendarni Roy Orbison, koji zajedno s autorom Billom Deesom potpisuje autorska prava na pjesmu. “Pretty Woman” je odmah nakon što je izdana postigla veliki uspjeh te ostala tri tjedna na poziciji #1 Billbordove top 100 ljestvice. Ploča se prodala u 7 milijuna primjeraka i označila Orbisovu glazbenu karijeru. U period od nekoliko mjeseci od izdavanja postigla je zlatnu tiražu, a na kraju 1964. Godine, odnosno te iste godine kada je izdana, Billboard ju je uvrstio u top #4 najbolje pjesme te godine.

Pretty Woman Akordi koje ćemo svirati u ovoj verziji su : A, F#m, D, E, Dm, G7, C, Am. U pjesmi koristimo 7 osnovnih akorda koje smo naučili u lekciji “akordi za gitaru za početnike“, te jedan barre akorda u osnovnoj formi mola na drugom polju (F#m). Osim navedenih akorda, kroz pjesmu se ponavlja prepoznatljiva fraza na gitari koja je jednostavna za naučiti, a pjesmu izvanredno nadopunjuje. U nastavku Pretty Woman Akordi u verziji Roy Orbisona. Uživajte !

Pretty Woman Akordi :

pretty woman akordi


Pretty Woman Intro :

e|-----------------------|   * Ovaj dio svirate x 2         

B|-----------------------|            

G|-----------------------|            

D|-----------0-----------|         

A|---------2-------------|            

E|-0--0--4---------------|  

e|-------------------------|  * Ovaj dio svirate x 4
                                   
B|-------------------------|

G|-------------------------|

D|-------------0--4--2--0--| 

A|----------2--------------|

E|-0--0--4-----------------|

Pjevanje :

A                        F#m
Pretty Woman, walking down the street,
A                           F#m
Pretty Woman, the kind I like to meet
D
Pretty woman,
E
I don’t believe you your not the truth,
E
No one could look as good as you

e|-------------------------|  * Nakon pjevanja ovaj dio svirate x 4
                                   
B|-------------------------|

G|-------------------------|

D|-------------0--4--2--0--| 

A|----------2--------------|

E|-0--0--4-----------------|

A                           F#m
Pretty woman, won’t you pardon me,
A                          F#m
Pretty woman, I couldn’t help but see,
D
Pretty woman,
E
you look lovely as can be,
E
are you lonely just like me?

e|-------------------------|  * Nakon pjevanja ovaj dio svirate x 4
                                   
B|-------------------------|

G|-------------------------|

D|-------------0--4--2--0--| 

A|----------2--------------|

E|-0--0--4-----------------|

Prijelaz – Bridge :

Dm                  G7                C                    Am
Pretty woman, stop a while, Pretty woman, talk a while,
Dm                 G7                      C Am
Pretty woman, give your smile to me.
Dm                 G7                       C                    Am
Pretty woman, yeah,yeah,yeah, Pretty woman look my way,
Dm                 G7                            C   A
Pretty woman, say you’ll stay with me-eee,
F#m      D                   E
Coz’ I need you, I’ll treat you right
A                     F#m D            E
Come with me baby, be mine tonight.

e|-------------------------|  * Nakon prijelaza (Bridge-a) ovaj dio svirate x 4
                                   
B|-------------------------|

G|-------------------------|

D|-------------0--4--2--0--| 

A|----------2--------------|

E|-0--0--4-----------------|

A                   F#m                      A                    F#m
Pretty woman, don’t walk on by, Pretty woman, don’t make me cry, Pretty
A                   F#m
Pretty woman, don’t make me cry
D
Pretty woman,
E
Don’t walk away, hey, okay, if that’s the way it must be okay.

I guess I go on home, it’s late, there’ll be tommorrow night but wait

What do I see ?

e|-----------------------|   * Ovaj dio svirate x 2         

B|-----------------------|            

G|-----------------------|            

D|-----------0-----------|         

A|---------2-------------|            

E|-0--0--4---------------|  

e|-------------------------|  * Ovaj dio svirate x 10
                                   
B|-------------------------|

G|-------------------------|

D|-------------0--4--2--0--| 

A|----------2--------------|

E|-0--0--4-----------------|




Pretty Woman Akordi – Roy Orbison
5 (100%) 3 votes

Mala Škola Gitare - komentari