Pirates Of The Caribbean Tab

Pirates Of The Caribbean Tab ili tablatura kako vam je draže, još jedna u nizu vježba koja će vam pomoći da vježbate prste na hvataljci – vratu gitare. Dakle ponovo smo pojednostavnili vježbu i namjenili je za početnike. “Pirates Of The Caribbean” tema iz dobro nam znanog filma je kompozicija čiji je original naziv “He’s a Pirate“. Producent filma Jerry Bruckheimer za glazbu filma prvobitno je angažirao kompozitora Alana Silvestria, s kojim je kasnije raskinuo suradnju radi njihovog međusobnog neslaganja oko ideje same teme (glazbe) filma, te je kasnije stupio u kontakt s Badeltom. Autori kompozicije “He’s a Pirate” su Klaus Badelt i Hans Zimmer. Poslušajte si temu pjesme i pri vježbanju pokušajte koristiti svih 4 prsta pri pritisku žica na vratu. Ukoliko vam nisu jasne tablature svakako pročitajte članak tablature za gitaru, gdje smo objasnili kako čitati tablature. Što se tehnika tiče, u ovoj vježbi ( u jednom dijelu) koristimo “hammer on” tehniku koju smo koristili u vježbi Pink Panther Theme Tab. u nastavku Pirates Of The Caribbean Tab … Uživajte !

Pirates Of The Caribbean Tab – Glavna tema :

e-------------------------------------------|

b----------------------8~-------------------|

g/7-7~--7-9-10-10~--10-----9-9~--7------7~~-|

d---------------------------------10-10-----|

a-------------------------------------------|

e-------------------------------------------|

 

e----------------------------------------|

b----------------------8~----------------|

g/7-7~--7-9-10-10~--10-----9-9~--7---7~~-|

d---------------------------------10-----|

a----------------------------------------|

e----------------------------------------|

 

e---------------------------------------------|

b----------------------8~--11-11~--10p8h10----|

g/7-7~--7-9-10-10~--10---------------------10-|

d---------------------------------------------|

a---------------------------------------------|

e---------------------------------------------|

 

e----------------|

b-------8-10-----|

g/10-10------7~~-|

d----------------|

a----------------|

E----------------|

 

e-----------------------|

b-----------------------|

g/7-10~--9-9~--10-7-9~~-|

d-----------------------|

a-----------------------|

E-----------------------|

Prijedlog : Vježbajte dio po dio, usporeno i točno. Kako budete savladavali dio po dio tako ih postepeno spajajte. Pirates Of The Caribbean Tab je super koristiti za zagrijavanje prije vježbanja ili sviranja. Svakako preporuka svima da nauče ovu super komoziciju.




Mala Škola Gitare - komentari