Ostani djubre do kraja akordi

Ostani djubre do kraja akordi. Pjesma “Ostani djubre do kraja” objavljena je 1979. godine na debitantskom albumu “Kost u grlu” rock grupe Riblja Čorba. Album je objavljen pod etiketom PGP RTB. Pjesmu potpisuje vokal Riblje Čorbe – Bora Đorđević. Također na albumu se nalaze hitovi Egoista i Rock’n’roll za kućni savet.

Postava benda na albumu “Kost u grlu”. Bora Đorđević – Vokal, Radislav Kojić – Solo gitara, Momčilo Bajagić (Bajaga) – Ritam gitara, Miroslav Aleksić – Bas gitara i Miroslav Milatović – Bubnjevi.

Akorde koje ćemo svirati su : Am, C, G, G5, Bm, D.
Akordi su lagani za odsvirati i pjesma je ritmički jednostavna zato vjerujem da neće imati poteškoća s izvedbom ove pjesme. Vjerujem da ćete uživati svirajući ovu legendarnu pjesmu. U nastavku Ostani djubre do kraja akordi za gitaru. Uživajte !

Ostani djubre do kraja akordi :

ostani djubre do kraja akordi

 Am                 Am                Am                Am
|------------------|-----------------|-----------------|-----------------|
|----------0-1-----|---------0-1-----|---------0-1-----|---------0-1-----|
|--------2-----2---|-------2-----2---|-------2-----2---|-------2---------|
|------2---------2-|-----2---------2-|-----2---------2-|-----2-----------|
|--0---------------|-0---------------|-0---------------|-0-----------0-2-|
|------------------|-----------------|-----------------|-----------------|

________________________________________________________________Dok

  C                 G                 Am                Am
|----------0-------|-------3---------|-----------------|-----------------|
|--------------1---|-----------------|---------0-1-----|---------0-1-----|
|--------0-------0-|-----------0---0-|-------2-----2---|-------2---------|
|------2-----------|-----0-----------|-----2---------2-|-----2-----------|
|--3---------------|---------3---2---|-0---------------|-0-----------0-2-|
|------------------|-3---------------|-----------------|-----------------|

___ stojim _ za _ šankom _ delimično __ pijan

   C                 G                 Am                Am
|----------0-------|-------3---------|-----------------|-----------------|
|--------------1---|-----------------|---------0-1-----|---------0-1-----|
|--------0-------0-|-----------0---0-|-------2-----2---|-------2-----2---|
|------2-----------|-----0-----------|-----2---------2-|-----2---------2-|
|--3---------------|---------3---2---|-0---------------|-0---------------|
|------------------|-3---------------|-----------------|-----------------|

___ Mrzeći _ pomalo _______ i _ sebe_ i _ druge

   Am                Am                Bm                Bm
|------------------|-----------------|-----------------|-----------------|
|----------0-1-----|---------0-1-----|---------3-4-----|---------3-4-----|
|--------2-----2---|-------2-----2---|-------4-----4---|-------4-----4---|
|------2---------2-|-----2---------2-|-----4---------4-|-----4---------4-|
|--0---------------|-0---------------|-2---------------|-2---------------|
|------------------|-----------------|-----------------|-----------------|

____ Ubijam _ lagano ____ konjak, _ cigarete

   C                 G                 Am                Am
|----------0-------|-------3---------|-----------------|-----------------|
|--------------1---|-----------------|---------0-1-----|---------0-1-----|
|--------0-------0-|-----------0---0-|-------2-----2---|-------2---------|
|------2-----------|-----0-----------|-----2---------2-|-----2-----------|
|--3---------------|---------3---2---|-0---------------|-0-----------0-2-|
|------------------|-3---------------|-----------------|-----------------|

____ Prijatelje dobre, _____ moje verne __ sluge.

 

C        G              Am
Nisam od onih koji cvile
C            G                 Am
Više te nemam i šta tu mogu
Am                          Hm
Ja ću se posle odvuci kući
C                        G              Am
Samo da popijem jos jednu s nogu.

 

D              C    G        Am
Nisi valjda luda da se stidiš
D                          C     G     Am
Što si me prognala istočno od raja
G                                 Am
Bar se nasmeši kada me vidiš
G5                  Am
Ostani đubre do kraja.

D              C    G        Am
Nisi valjda luda da se stidiš
D                          C     G     Am
Što si me prognala istočno od raja
G                                 Am
Bar se nasmeši kada me vidiš
G5                  Am
Ostani đubre do kraja.

 

C                       G                Am 
Znam, neću moći jos dugo da zaspim
C                       G           Am
Beskrajno duge, proklete noći
Am                                 Hm
Kako su pogrešni dani bez tebe
C                 G                 Am
Tu mi ni piće ne moze pomoći.

 

D              C    G        Am
Nisi valjda luda da se stidiš
D                          C     G     Am
Što si me prognala istočno od raja
G                                 Am
Bar se nasmeši kada me vidiš
G5                  Am
Ostani đubre do kraja.

Ostani djubre do kraja akordi
5 (100%) 4 votes

Mala Škola Gitare - komentari