Krivo Je More Akordi – Divlje Jagode Akordi

Krivo je more akordi. “Krivo je more” je jedna od najpoznatijih pjesma poznatog bosanske hard rock – heavy metal grupe Divlje Jagode. Divlje Jagode su definitivno jedan od najpopularnih sastava na prostorima bivše Jugoslavije i s pravom se smatraju začetnicima žestokog zvuka na našim prostorima.

Pjesma “Krivo je more” nalazi se na njihovom prvom albumu pod nazivom “Divlje Jagode” koji izlazi pod palicom najpoznatije producentske kuće u ono vrijeme – Jugoton. Band je ponovno snimio novu verziju iste pjesme koja izlazi na kompilaciji Divlje Jagode “The Very Best Of” 2004. godine pod etiketom Croatia Recordsa.

Autor teskta i glazbe je legendarni gitarist Sead Lipovača – Zele.

Krivo je more akordi koje ćemo koristiti u ovoj verziji jesu: G, Am, C, Em, D, B, B7. Radi se o osnovnim akordima za gitaru s kojima ste se već susretali. Takoder, uz akorde ispisao sam vam tablature glavnog sola i manjih fraza što Lipovača svira kroz dio pjevanja. Ovo je obrada originalne verzija pjesme s prvog albuma. Iskreno se nadam se da ce Vam se svidjeti 🙂 Svi prijedlozi i korekcije uvijek su dobro došli u komentarima. U nastavku Krivo je more akordi i tablature za gitaru.

Krivo je more tablature (solo):

 

e|-------------------------------7-8----8-7----7----
B|--10b12--10b12r10--8p7h8----10-----------8----10--
G|------------------------------------------7-------
D|--------------------------------------------------
A|--------------------------------------------------
E|--------------------------------------------------

e|--7h8p7-------------------------------------------
B|---------7---10-8---7-----------------------------
G|-----------------------9~9~9~9~-7~----------------
D|------------------------------------10-9--7-------
A|--------------------------------------------------
E|--------------------------------------------------

Krivo je more akordi i ritam :

krivo je more akordi, krivo je more akordi za gitaruPjevanje :

G               Am
Ti, ti si ga upoznala
C             G
jedne ljetnje večeri
G               Am
On, on te poljubio
C              G
dok more se pjenilo

           Em                  D
D|----------------------------------   (Ovo je fraza koju svirate uz stih 
A|---2--5--7-------------------5----    "I ti se zaljubila")
E|----------------------------------
          ... i ti si se zaljubila..

Em           D
I ti si se zaljubila

           Em                  D
D|--4h5p4---0--2-----2---------------- (Ovo je fraza koju svirate uz stih
A|------------------------------------  "mada nisi htjea to")
E|------------------------------------
            ... mada nisi htjela to...

Em               D
mada nisi htjela to

                C              G
D|--4h5p4---------------------------  (Ovo je fraza koju svirate uz stih
A|---------5-3----------------------   "Krivo je more)
E|---------------(5)----------------
            ... krivo je more..

C         G
Krivo je more.

 

Pjevanje :

G                  Am
Znaj, ljeto je varljivo
C              G  
a srce ti zavodljivo
G               Am
Kući kad si došla ti
C                     G
znala si da si u zabludi
Em               D            (ponavljate frazu 1.)
A to veče uz mora sum
Em                  D         (ponavljate frazu 2.)
od sreće sva si blistala
C           G                   (ponavljate frazu na gitari 3.)
Krivo je more.

 

Solo (tablatura):  G – D – Em – C – G – D – H – H7 – Em – D – C – D

 

Pjevanje :

G                  Am
Znaj, ljeto je varljivo
C              G  
a srce ti zavodljivo
G               Am
Kući kad si došla ti
C                     G
znala si da si u zabludi
Em               D            (ponavljate frazu 1.)
A to veče uz mora sum
Em                  D         (ponavljate frazu 2.)
od sreće sva si blistala
C           G                   (ponavljate frazu na gitari 3.)
Krivo je more.

 

Solo (tablatura):  G – D – Em – C – G – D – H – H7 – Em – D – C – D

Krivo Je More Akordi – Divlje Jagode Akordi
5 (100%) 5 votes

Mala Škola Gitare - komentari