Knocking on Heavens Door Tablature

Knocking on heavens door tablature. Pozdrav svima ! Dobio sam dosta vašim upita na našoj Facebook stranici vezano za pjesmu od Bob Dylana “Knocking on hevanes door” koju smo objavili još ranije. Konkretno pitanja su se odnosila na uvodni dio pjesme iz verzije legendarnih Guns N’ Roses-a i bilo je također upita oko prvog sola kojeg Slash svira u studijskoj verziji. Drago mi je da vam je “sjeo” ritam i da uživate svirajuči ovaj klasik i mislim da ćete ovim tablaturama dodatno začini pjesmu koja će poprimiti potpuno novu dimenziju samo dodajući malo prebiranja akorda i par čarobnih nota u aražmanu legendarnog Slasha. Obzirom da je pjesma u relativno sporom tempu, imate dovoljno vremena da kvalitetno savladate prebiranje uvodnog dijela, dakle radi o istim akordima, ali samo prebiranim. Što se prve solaže tiče, to će biti prvenstveno zabavno onima koji sviraju i vježbaju zajedno, dakle dok jedan od vas svira ritam u podlozi – druga gitara će odsvirati solo. Ovaj pjesma u kombinaciji s dvije gitare zvuči super kako na električnim gitarama tako i na akustičnim. Vjerujem da će sa ovim malim “dodatkom” – uvodnog dijela i solaže ova pjesma postati redovna na vašem svakodnevnom repertoaru. Uživajte !

Napomena : Original verzija Guns & Rosesa je u tonalitetu Eb, odnosno gitara Slasha je uštimana pola tona niže od standard (Eb – Ab – Db – Gb –Bb – Eb), imajte to na umu ukoliko budete vježbali uz njihovu original verziju.

Da Vam malo olakšam vježbu, uspio sam na Youtubu pronaći njihovu verziju od “Knocking On Heavens Door” koja je transponirana u standardni štim E A D G B e pa možete uz ovu verziju vježbati bez preštimavanja gitare. Ukoliko budete imali problema s čitanje tablature, pročitajte članak “Tablature za gitaru” gdje je objašnjeno kako čitati tablature za gitaru.



Knocking on heavens door tablature – Intro (Uvod) :

 

    G             D                 C    

e|--------3-------------2-0-------|---------------0-----------------|

b|--3-------3---3-----3-----3---3-|---------1-----------1-----------|

g|--0---------0-----2---------2---|-0-----0---0-------0---0-0-----0-|

d|--0-------------0---------------|-0^2---------2---2-------0^2-----|

a|--------------------------------|-----3-----------------------3---|

e|--3-----------------------------|---------------------------------|


    G             D                 C
e|--------3-------------2-0-------|---------------------------------|

b|--3-------3---3-----3-----3---0-|-------1-------1-----1---1-1-1-0-|

g|--0---------0-----2---------2---|-----0---0---------0---0-0-0-0-0-|

d|--0-------------0---------------|---2-------2-----2-------2-2-2-0-|

a|--------------------------------|-3-----------3-----------3-3-3-0-|

e|^(3)----------------------------|---------------------------------|

Knocking on heavens door tablature – Solo :

 

            Full                     ½

             |\    P                 |\            ~~~~~~~~~~~~~~~~~~~~~~~~

e|-----------|-\---------------------|-\---------|------------------------------------|

b|-----------|--\--------------15----|--\--------|------------------------------------|

g|------12--14-(14)^12-14-----------14-----12-12-|(12)-----------------------------12-|

d|-----------------------------------------------|---------------------------13/14----|

a|-----------------------------------------------|------------------------------------|

e|-----------------------------------------------|------------------------------------|
  
                           Full

                    P      /                P        P    ~~~~~~~~~~~~~~~~

e|------------------------/---------------------|----------------------------------15----|

b|-15/17---15-----13^12-13----------------13^12-|--13^12---------------------12-13----13-|

g|----------------------------------------------|----------------------------------------|

d|----------------------------------------------|---------14-----------------------------|

a|----------------------------------------------|----------------------------------------|

e|----------------------------------------------|----------------------------------------|


  
                                             Full
                      Full         Full     ½/                                   Full

   ~~~~~~~~  sl.       /            /       |                                     /

e|----------------15-17-----17---(17)------17----|-15---------------------------20---|

b|-12-------15/17--------------------------------|-----------------------------------|

g|-----------------------------------------------|-----------------------------------|

d|-----------------------------------------------|-----------------------------------|

a|-----------------------------------------------|-----------------------------------|

e|-----------------------------------------------|-----------------------------------|
 
                      Full                                    Full-----+      1/2--------+

           P            /               ~~~~~~~~~~~~~~~~        /\    /\        /\      /\

e|-(20)--20^19-20--19-20-----20------20----|-------------------/--\--/--\------/--\----/--\---------|

b|------------------------------(18)----17-|-(17)-------------/----\/----\----/----\--/----\--------|

g|-----------------------------------------|----------------19---------------/------\/------\-------|

d|-----------------------------------------|-------------------------------19-----------------------|

a|-----------------------------------------|--------------------------------------------------17-17-|

e|-----------------------------------------|--------------------------------------------------------|




Knocking on Heavens Door Tablature
5 (100%) 2 votes

Mala Škola Gitare - komentari